Sugam Pokhrel - Dashain Tihar Song Guitar Chord, Tab, Lyrics And Tutorials

Dashain Tihar Song Guitar Chords And Lyrics

Song: Dashain Tihar Song
Artist: Sugam Pokhrel

Original Song:

Intro: Originally Played On Keys

Play Twice:

e|------------------|-----------------|-------------------------------|
B|---------------7-|-----------------|-------------------------4----|
G|--------8h9----|----8h9--8-6-|-------4-6------4h6---4--|
D|--9-9-----------|-9---------------|-6-6--------------------------|


Then,
B Scale Run ( Originally Played On Keys )

e|--7-6-4----------------------------------------|----------------------------------------|
B|-----------7-5-4-------------------------------|---------------------------------------|
G|-------------------6-4--------------------------|-----------------------------6-6-6--|
D|-------------------------6-4--------------------|-----------------4-6-8-9-----------|
A|-------------------------------7-6-4-----------|--------4-6-7-----------------------|
E|----------------------------------------7-6-4--|-----7--------------------------------|

Verse:

B.................G#m
Barsa ra din ma lai lai
B...............G#m
Harsa ka din yi lai lai

C#............................................
Dashain tihar chad ra baada
.......................................B
Khusi le sara varyo ni sansar
.................C#
Ahh ha ha ha aa
........................................B
Khusi le sara varyo ni sansar


Guitar Solo: / B /
Dashain Tune ( With Distortion )

e|---------------7-7-7-5-5-5-3-2-|
B|--5/7-7-7-------------------------|


e|------------------------------------|
B|--3/5-7-7/8-7-5--------------|
G|-----------------------7-6-6-4--|


e|-----------------------------------------------------|
B|----------------------5----5-7/8-7-5-----------|
G|--3-3-3-3-4-4-6----6----------------7-6-4--|


e|------------------------------------------------------|
B|-----------------------5----5-7/8-7-5-----------|
G|--3-3-3-3-4-4-6----6-----------------7-6-4--|


Then,
Originally Played On Keys,

      B Chord

e |--9--------------|
                   B|--------12-------|  -- 4 Times
G|-------------11--|

        E Chord
e|-------------------|
                    B|--9---------------|  -- 4 Times
G|--------11-------|
D|-------------11--|

      F# Chord
e |--7----------|
                   B|-------7------|  -- 4 Times
G|-----------9--|

     B Chord
e |--6---------|
                  B|-------7-----| -- 3 Times
G|----------6--|

Then,
    B Chord
e|--6---6--|
B|----------|
G|----6----|


Verse:

B.................G#m

Aarka ko desh ma lai lai
B..................G#m
Samjhana aako ni malai
B..................G#m
Sayapatri fuleko aagan
B.......................G#m
Rato akchata jamara lagai

C#.......................................
Yeta mero aasu ko dhara
.....................................B
Uta holan raatai ti nidhara
.....................C#
Ahh ha ha ha aaa
....................................B
Uta holan raatai ti nidhara


Guitar Solo: / B /
Tihar Tune ( With Distortion )


e|--11/14--13-11-13--9-11-----------------|
B|------------------------------------12-12-12--|


e|-------11-9----------------------------------|
B|--12--------12-11--9h11p9--9-9-9--|


e|-----9-----------------------------------|
B|--9---12-11-9--7h9-11-11-11--|


e|------11-9-----------------------|
B|--11-------12-11-9-11-12--|

Then,
Originally Played On Keys,

     B Chord
e |--9------------|
                    B|------12-------|  -- 4 Times
G|-----------11--|

      E Chord
e|-----------------|
                     B|--9-------------|  -- 4 Times
G|------11-------|
D|-----------11--|

   F# Chord
e |--7----------|
                     B|-------7------|  -- 4 Times
G|----------9--|

     B Chord
e |--6----------|
                   B|-------7-----| -- 3 Times
G|----------6--|

Then,
         

   B Chord
e|--6---6--|
B|----------|
G|----6----|


Verse:

B...............G#m
Supari mala yo dai lai
B.................G#m
Bato vari aankha ti failai
B...................G#m
Basdai holi meri bahini
B....................G#m
Daju aaune din haru gandai

C#....................................................
Yespali pakkai aauchu ma bahini
........................................B
Sajauna lai aafnai tyo sansar
..................C#
ahh hahaha aaa
..........................................B
Sajauna lai aafnai tyo sansar
...................C#
ahh ha ha ha aa
........................................B
Khusi le sara varyo ni sansar
....................C#
ahh ha ha ha aaa
....................................B
Uta holan raatai ti nidhara
.....................C#
ahh ha ha ha aaa
.........................................B
Sajauna lai aafnai tyo sansara

Enjoy !!

Happy Dashain And Tihar :)

13 Comments

  1. I'll post intro/solo1/solo2 tab of this song soon... So keep visiting my blog ..... Or follow my blog!

    ReplyDelete
    Replies
    1. plz post this songs intro and solo part....

      Delete
  2. Plz post this songs solo also

    ReplyDelete
  3. Plz post intro, solo of this song

    ReplyDelete
  4. i'll soon post tabs guys kep visiting. Actually im out of town. Thnx 4 visiting!

    ReplyDelete
  5. it's been 2 months amd still no solo?
    please post asap

    ReplyDelete
    Replies
    1. sorry ßro .... I've been suffering from lack of timeobia ... :D hahaha...

      Delete
  6. i just love this song by Sugam Pokharel. Thanks

    ReplyDelete
  7. mp dude! I've tabbed out half of the song. So i'll post full tab of this song within a day or two! So just wait! Thank you all for ur comment.

    ReplyDelete
  8. Great Dashain Tihar Songs! Thanks for lyrics and chords! Are there any other songs related to Nepali festivals? Please post them too! You can view upcoming Nepali Festivals here: http://www.ashesh.com.np/nepali-calendar/

    ReplyDelete
  9. I'll try to post more song releted to nepali festivals. So keep visiting!! And thanks for your comment :)

    ReplyDelete
  10. Greats Dashain tihar songs thanks for Lyrics and Chords..

    ReplyDelete

Iklan Atas Artikel

Iklan Tengah Artikel 1

Iklan Tengah Artikel 2

Iklan Bawah Artikel