Mukti And Revival - Chaubandi Cholo Guitar Chords And Lyrics (Full Tab) | SongsChord

Chaubandi Cholo Guitar Chords And Lyrics

Chaubandi Cholo Guitar Chords And Lyrics By Mukti And Revival

Song - Chaubandi Cholo
Band - Mukti And Revival


Intro (Piano)
         C      Am                          F        G
E|---------------------------------|------------------------------------|
B|----1-----1----0h1----------|----1-------3----3----------------|
G|----0-----2------------2------|----2-------4--------4----2------|
D|----2-----2----------------2--|----3-------5------------------2--|
A|----3-----0--------------------|----3-------5----------------------|
E|---------------------------------|----1-------3----------------------|
 
         C       Am                         F          G  
E|---------------------------------|--------------------------------|
B|----1-----1----0h1----------|----1-------3----3------------|
G|----0-----2------------2------|----2-------4--------4--------|
D|----2-----2----------------2--|----3-------5-------------5---|
A|----3-----0--------------------|----3-------5------------------|
E|---------------------------------|----1-------3------------------|

Main Riff
           C      Am          F       G
E|--------------------|-------------------|
B|------1-----1-----|-----1------3-----|
G|------0-----2-----|-----2------4-----|
D|------2-----2-----|-----3------5-----|
A|------3-----0-----|-----3------5-----|
E|--------------------|-----1------3-----|


Verse
C                 Am
Chaubandi cholo
F                    G               
Kalo sari kya suhayeko

C    Am    F    G

C               Am
Hatai ma rumal
F                G        C
Nidhar ma tiko
Am        F       G
Ranga kati mileko
Hey

F      G
F      G

Verse
C                    G             Am        F
Chama chama gardai mero aangani ma
C              G     Am         F         
Kina timi aayi nachna thaleki

C       G

                      Am          F               
Phulbarima phuleko phula jhai

C          Am

F     G          
Hoo
   C                  Am     
Nachna kina ayeki

F   G

Chorus
F                         G
Maya ma maile timrai lagi
F                                 G
Timrai lagi maile yo jyanai faleko ho ho

Verse
C            Am       F              G
Sirai ma ribon gala ma naugedi
C                  G                  Am             F                          
Hey naakai ma phuli hoo kaan ma jhumka kati suhayeki

C  Am

F                     G                    
Hoo nachna kina ayeki

C   Am

   F      G
Hooo yeah

Solo
E|-------------------------------------------15---------------------------------------------------------|
B|---13--10--------10--13---15p17------15p17---15---13---15h13--------13----------|
G|--------------12-------------------------------------------------------------------14---------------|
D|-------------------------------------------------------------------------------------------------------|
A|-------------------------------------------------------------------------------------------------------|
E|--------------------------------------------------------------------------------------------------------|

E|---------------5------------------------------------------------------------------------------|
B|-----------5----------------------------------------------------------------------------------|
G|---7p9----------7h5--7p9--7--5-------5h7h5---------------5----------------------|
D|-------------------------------------------7--------------7--5--7------7-------------------|
A|-----------------------------------------------------------------------------------------------|
E|-----------------------------------------------------------------------------------------------|

E|-------------------------------------------------------------------------------------------------|
B|---8p10---8p10---8p10--8p10--10--8--5h6h5-----5-----------------------------|
G|---------------------------------------------------------------7-----5--7h5------5----------|
D|----------------------------------------------------------------------------------7-------------|
A|-------------------------------------------------------------------------------------------------|
E|-------------------------------------------------------------------------------------------------|

Chorus
F           G
Maya ma maile timrai lagi
F                                  G
Timrai lagi maile yo jyanai faleko ho
C             Am      F              G
Sirai ma ribon gala ma naugedi
C                       G               Am             F                
Hey nakai ma phuli hoo kaan ma jhumka Kati suhayeki

C   Am

F         G                    C      Am      
Hoo nachna kina ayeki   
F          G
Hooo yeah

Bridge
C                Am
Chaubandi cholo
F        G
Kalo sari
C              Am
Hatai ma rumal
F               G
Nidhar ma tiko
C               Am
Nakai ma phuli hoo
F                G
Kaan ma jhumka
           C          Am       F       G
Kati suhayeko

C    Am    F   G

C    Am    F   G

End
C         Am      F          G
Hooo hooo Nachna kina
C     Am      F      G
Hooo kina ayeki
C         Am          F             G
Chaubandi cholo hatai ma rumal

C   Am

F          G       C
Chaubandi cholo

Thanks For Reading ❤️
Enjoy 😊

Stay Connected For The Latest Song's Guitar Chords And Lyrics. Don't Forget To Share This Post, It Helps Us Grow ☺️

Also you can contribute by submitting a song you know in the Submit Chords section or request any song which is not available here, simply going to the Request A Song section. 🙂

«Enjoyed this post? Never miss out on future posts by following us»

0 Comments

Post a Comment

Iklan Atas Artikel

Iklan Tengah Artikel 1

Iklan Tengah Artikel 2

Iklan Bawah Artikel