Albatross Nepal - Khaseka Tara Guitar Chords, Guitar Tabs, Song Lyrics And Tutorials

Khaseka Tara Guitar Chords And Lyrics

Song: Khaseka tara
Artist: Albatross

Plucking A:

e|----------------------------------------------------|
B|---3---3-----3-----3-------7---7------7----8--|
G|------------0-----0---0---------------0----0-----|
D|---------------------------------------------------|
A|-3---3---3-----3-------7----7----7-------------|
E|----------------------------0----------------------|

Plucking B:

e|--------------0-------0---------------------0--|
B|-----3---3-----3---3--3---3-----3---3--------|
G|---2---2---2-----2------2-----2---2---2-----|
D|-0-----------------------------------------------|
A|-------------------------------3-----------------|
E|--------------------------------------------------|

Play plucking A

Timi vanda dherai maya kasle garna sakcha ra
Timi jasto jhuto kasam kasle khana sakcha ra

Play Plucking B

Herana.......nahera malai, jalauna malai

/Em,D/Em,D/Em,D/C,D/

Em              D                   Em              D
Eklao nai chu ma aaja eklai ramauna deu
Em              D                  C                   D
Ekanta ko sunyata ma aasu khasauna deu
Em                D                   Em             D
Jeevan ko yo goreto ma farki tehi puge
Em              D                  C                     D
Jeevan yo k ho k ho nabujhi tolai rahe ma
Asus2      Em/C Asus2 Em/C D*
Timi bina ma, jalauna malai
Em/C D*                          Em/C D*
Khaseka tara gandai timi lai nai maagi base - 3
Em/C D*                      Em
Raata biteko chaalai paina

/Em,D/Em,D/Em,D/C,D/

/Play same as above/

Aaja feri yaada aayo vanna lai koi chaina
Chadera jaana pani maan le yo maandaina
Jaanu cha dherai tadha farki aaune kahile
hridaya ma chodi dinchu samhali raakhi deu na
Timi bina ma, jalauna malai
Khaseka tara gandai timi lai nai maagi base - 3
Raata biteko chaalai painaaa

Chords Used:
Em: 779970
D: 557755
C: 335533
Asus2: 00220x
Em/C: 000230
D*: 00045x


Enjoy ☺️

2 Comments

  1. It was really helpful. Thanks heaps.

    ReplyDelete
  2. My pleasure! ^_^ thnx for ur feedback :)

    ReplyDelete

Iklan Atas Artikel

Iklan Tengah Artikel 1

Iklan Tengah Artikel 2

Iklan Bawah Artikel