Rohit John Chettry - Bistarai Bistarai Guitar Chord, Tab, Lyrics And Tutorials

Bistarai Bistarai Guitar Chords And Lyrics

Song: Bistarai
Artist: Rohit John Chettry



Chords Used
                    E5       Bsus4               E?             C#m7         B
E |----------[0]---------[0]---------------[0]------------------------------------|
B |----------[0]---------[0]---------------[7]-------------[5]-------------------|
G |----------[9]---------[8]---------------[9]-------------[4]----------[4]-----|
D |----------[9]---------[9]---------------[6]-------------[2]----------[4]-----|
A |----------[7]---------[9]--------------------------------[4]----------[2]-----|
E |----------[0]---------[0]--------------------------------------------------------|


Intro

        [E]                   [Bsus4]               [E?]
e |-----------0--------|------------0-------|------------0---------|
B |--------------0-----|---------------0----|--------7------7------|
G |-----------------9--|---------8-------8--|--------------------9-|
D |--------9-----------|-----9--------------|-----6----------------|
A |------7-------------|--9-----------------|----------------------|
E |----0---------------|--------------------|----------------------|

      [E]                     [Bsus4]               [E?]
e |-----------0--------|------------0-------|------------0---------|
B |--------------0-----|---------------0----|--------7-------------|
G |-----------------9--|---------8-------8--|----------------------|
D |--------9-----------|-----9--------------|-----6----------------|
A |------7-------------|--9-----------------|----------------------|
E |----0---------------|--------------------|----------------------|

Finger Picking Pattern

     [E]                     [Bsus4]                  [E?]                              [E]                                [Bsus4]
e |-----------0--------|-------------0---------|---------------------0-------|-------------------------0---------|---------------------------0--------|
B |--------------0-----|-----------------0-----|---------7-------------7-----|-------------0-------------0-------|-------------0---------------0------|
G |----------------9---|---------------------8-|-------------9------------9--|---------------9---------------9---|---------8------8--------------8----|
D |--------------------|------9----------------|-----6----------6------------|------------------9----------------|-----9---------------9--------------|
A |-----7--------------|---9-------------------|-----------------------------|--------7--------------------------|---9--------------------------------|
E |---0----------------|-----------------------|-----------------------------|-----0-----------------------------|------------------------------------|

Play Picking Pattern Above
E5           Bsus4
Bistarai Bistari
E?
Dubdai Chu Timro
E5                         Bsus4
Maya Ko Sagar Ma Maa
E5                          Bsus4
Dukha Aasu Sabai Birsera
E?
Ramna Chahanchu
E5                             Bsus4
Timro Nyano Angalo Ma Maa

E5                              Bsus4
Khula Pankha Fijai Aakash Ma
E?
Ude Ko Chari Jhai
E5                                   Bsus4
Mukta Huna Chahanchu Maa
E?                  E5     Bsus4
Timro Maya Ma Maa
E?         E5     Bsus4
Dubna Chahanchu
E?
Timro Maya Ma
E5                      Bsus4
Ramna Chahanchu Maa

Now Strumming Starts : D DUDU

E5           Bsus4
Bistarai Bistari
E?
Dubdai Chu Timro
E5                        Bsus4
Maya Ko Sagar Ma Maa
E5                            Bsus4
Dukha Aasu Sabai Birsera
E?
Ramna Chahanchu
E5                             Bsus4
Timro Nyano Angalo Ma Ma

E5                             Bsus4
Khula Pankha Fijai Aakash Ma
E?
Ude Ko Chari Jhai
E5                              Bsus4
Mukta Huna Chahanchu Maa
E?                  E5     Bsus4
Timro Maya Ma Maa
E?         E5     Bsus4
Dubna Chahanchu
E?
Timro Maya Ma
E5                        Bsus4
Ramna Chahanchu Maa


Solo
E   Bsus4   E?
E   Bsus4   E? 
F#m   Bsus4   E   
C#m   A6   B   E   Bsus4   E?

B|------12-12-10--9-7------7--7/9--10-9--|
G|--9------------------------9--------------------|


B|------12-12-10-9-7-----7--7/9--7-0-----|
G|--9-----------------------9--------------------|


B|--0-------------------------------------------11/12--12-9------|
G|------6-8/9--11-11/13\11-11--9-9---------------------11-|


e|--9/12--11-7-7/9--16-16--|


B|------------------------------------11/12--12-9------|
G|--------9--11-11/13-13-9-9-------------------11-|
D|--11-----------------------------------------------------|


e|--11/12--12----------------------------------|
B|--------------------12/14--12-12--9\7-7--|

Verse
C#m7            E5          Bsus4
Sahara Bani Deu Timi Mero
C#m7        E5    Bsus4
Khusi Bani Deu
C#m7              E5         Bsus4
Sahara Bani Deu Timi Mero
C#m7         E5    Bsus4
Khusi Bani Deu

G#m
Andhakar Ko Ujyali
F#m
Juneli Raat Ko Jun
Bsus4             E5
Timi Mero Bani Deu

E5         Bsus4
Sustari Sustari
E?
Gaundai Cha Yo Maan Le
E5                 Bsus4
Geet Timro Naam Ko

E5        Bsus4       E?
Bistarai Bistarai
E5       Bsus4      E?
Sustari Sustari
E5       Bsus4      E?
Bistarai Bistarai
E5       Bsus4      E?
Sustari Sustari

Have Fun! :)

4 Comments

Iklan Atas Artikel

Iklan Tengah Artikel 1

Iklan Tengah Artikel 2

Iklan Bawah Artikel