Deepak Bajhracharya - Timilai Bhuleko Guitar Chord, Tab, Lyrics And Tutorials

Timi Lai Bhuleko Guitar Chords And Lyrics

Song: Timi Lai Bhuleko
Artist: Deepak Bajracharya & The Rhythm Band
Music : James Pradhan
Album: On Rush


Intro Chords

Em D G C
Em G c

Intro

   e|--------7br--7---------|--------------------|
             B|--10---10--12--8-|--7--8--7/8\7------|
  G|-----------------|---------------9--7-|
D|-----------------|--------------------|

e|--7br--7---------|--------------------|
B|--10---10--12--8-|----8--8/10-------|
G|-----------------|----------------|
D|-----------------|--------------------|

Plucking
Em    G    C   Em   Am - 2

B|------------7--8-------|
G|------9-----------9----|
D|----9---9------------9-|
A|--7--------------------|
E|-----------------------|

B|------------7--8-------|
G|------9-----------9----|
D|----9---9------------9-|
A|--7--------------------|
E|-----------------------|

B|----------7---------|
G|------9-----9-------|
D|--------9-----9-----|
A|---10-----------10--|
E|-8------------------|

e|------0---------0-----|
B|----0---0-----0----0--|
G|----------------------|
D|----------------------
A|-----------0----------|
E|--3-------------------|

For the verse part below Guitar1 play chords and Guitar2 Plays this pattern:

B|------------7--8-------|
G|------9-----------9----|
D|----9---9------------9-|
A|--7--------------------|
E|-----------------------|

B|------------7--8-------|
G|------9-----------9----|
D|----9---9------------9-|
A|--7--------------------|
E|-----------------------|

e|----------5--------|
B|------------5------|
G|------6-------6----|
D|----7---7-------7--|
A|--0----------------|
E|-------------------|

e|----------5--------|
B|------------5------|
G|------6-------6----|
D|----7---7-------7--|
A|--0----------------|
E|-------------------|

e|------------3----------|
B|-------3-------3-------|
G|-----4----4------4-----|
D|--5-----------------5--|
A|-----------------------|

e|-----------2---------|
B|--------4-----4------|
G|------4---------4----|
D|----4-------------4--|
A|--2------------------|
E|---------------------|

Em                                                   Am
Timilai Bhuleko Chaina Chaina Aaja Pani
C                            D
Tasvir Merai Saath Cha mayalu

Before maya mareko
e|---------------------|--------------------|
B|------------7--8-----|-------------7--8---|
G|------9-----------9--|-------9----------9-|
D|----9----9-----------|--0--9----9---------|
A|--7------------------|--------------------|


B|------------7--8-------|
G|------9-----------9----|
D|----9---9------------9-|
A|--7--------------------|
E|-----------------------|

B|------------7--8-------|
G|------9-----------9----|
D|----9---9------------9-|
A|--7--------------------|
E|-----------------------|

e|----------5--------|
B|------------5------|
G|------6-------6----|
D|----7---7-------7--|
A|--0----------------|
E|-------------------|

e|----------5--------|
B|------------5------|
G|------6-------6----|
D|----7---7-------7--|
A|--0----------------|
E|-------------------|

e|------------3----------|
B|-------3-------3-------|
G|-----4----4------4-----|
D|--5-----------------5--|
A|-----------------------|

e|-----------2---------|
B|--------4-----4------|
G|------4---------4----|
D|----4-------------4--|
A|--2------------------|
E|---------------------|

e|-------------2--3--0--|------------2--3--0--|
B|--------5-------------|-------5-------------|
G|-----4-----4----------|----4-----4----------|
D|----------------------|--0------------------|
A|----------------------|---------------------|
E|--0-------------------|---------------------|

e|------------2--------|-------0--------0----|
B|-------5------5------|-----0---0----0---0--|
G|-----4---4------4----|---------------------|
D|------------------5--|---------------------|
A|--3------------------|------------0--------|
E|---------------------|--3------------------|

Em                                             Am
Maya mareko chaina chaina ma bekasur chu
C                                     D
Timilai thaha rahena cha mayalu

Now Guitar 1 Plays Chords And Guitar2 Play this pattern:

B|------------7--8-------|
G|------9-----------9----|
D|----9---9------------9-|
A|--7--------------------|
E|-----------------------|

B|------------7--8-------|
G|------9-----------9----|
D|----9---9------------9-|
A|--7--------------------|
E|-----------------------|

e|----------5--------|
B|------------5------|
G|------6-------6----|
D|----7---7-------7--|
A|--0----------------|
E|-------------------|

e|----------5--------|
B|------------5------|
G|------6-------6----|
D|----7---7-------7--|
A|--0----------------|
E|-------------------|

e|------------3----------|
B|-------3-------3-------|
G|-----4----4------4-----|
D|--5-----------------5--|
A|-----------------------|

e|-----------2---------|
B|--------4-----4------|
G|------4---------4----|
D|----4-------------4--|
A|--2------------------|
E|---------------------|

e|---------------------|--------------------|
B|------------7--8-----|-------------7--8---|
G|------9-----------9--|-------9----------9-|
D|----9----9-----------|--0--9----9---------|
A|--7------------------|--------------------|

Em                                               Am
Timilai Bhuleko Chaina Chaina Aaja Pani
C                              D
Tasvir Merai Saath Cha mayalu

B|------------7--8-------|
G|------9-----------9----|
D|----9---9------------9-|
A|--7--------------------|
E|-----------------------|

B|------------7--8-------|
G|------9-----------9----|
D|----9---9------------9-|
A|--7--------------------|
E|-----------------------|

e|----------5--------|
B|------------5------|
G|------6-------6----|
D|----7---7-------7--|
A|--0----------------|
E|-------------------|

e|----------5--------|
B|------------5------|
G|------6-------6----|
D|----7---7-------7--|
A|--0----------------|
E|-------------------|

e|------------3----------|
B|-------3-------3-------|
G|-----4----4------4-----|
D|--5-----------------5--|
A|-----------------------|

e|-----------2---------|
B|--------4-----4------|
G|------4---------4----|
D|----4-------------4--|
A|--2------------------|
E|---------------------|

e|------------0--------|
B|---------3-----0-----|
G|------0----------0---|
D|----4--------------4-|
A|---------------------|
E|--0------------------|

e|------------0--------|
B|---------3-----3-----|
G|------0----------0---|
D|----4--------------4-|
A|---------------------|

E|--0------------------|
B|--8--7--5--7--|[ W/ distortion ]

Em                                                Am
Maya mareko chaina chaina ma bekasur chu
C                                         D
Timilai thaha rahena cha mayalu

For the part below 1st guitar play this pattern; [ Play 4 Times ]
e|------------3------|---------3------|
B|------3-------3----|-----5-----5----|
G|----0-----------0--|-------------0--|
D|-------------------|----------------|
A|-------------------|----------------|
E|--3----------------|--0-------------|

2nd guitar play this with distortion:
e|---8----|------10-----| [ 3 Times ]
then;
e|--2h3--|( 32 Times )

G                                Em
Timile dekhaye ko bato haru ma
G                                Em
Ma ajhai harayera base ko chu
G                             Em
Timi le diye ka ti aash haru ma
G                              Em
Ma ajhai loviyera base ko chu

C                                     D
Sachai nai vanu kita maya lagcha
C                              D
Kaha chau aawaj deu
C                          D
Timi bahek aru kohi chaina
C                         D
Chadera gayau mayalu

Solo
e|--7pbr-----------|-------------------|--15--14---------------|
B|--10----10--12---|-----8/10--12--10--|---------15------------|
G|---------------9-|--9----------------|------------14--14\12--|
D|-----------------|-------------------|-----------------------|

B|-----------------------------|--12--0--10--12--0--8--12--0--7--12--0--8--12--0--5--12--|
G|--11--12--12--14--14--11--7--|---------------------------------------------------------|

e|-------------------------------------------------------|-------------------------------------------------------|
B|--0--7--12--0--8--12--0--7--12--0--5--12--0--7--12--0--|--7--12--0--8--12--0--7--12--0--5--12--0--7--12--0--8--|

e|--------------------------------------------------|
B|--------------------------------------3-5-7-3-5-7-|
G|--------------------------4-5-7-4-5-7-------------|
D|--------------4-5-7-4-5-7-------------------------|
A|--3-5-7-3-5-7-------------------------------------|


Em                                                  Am
Timilai Bhuleko Chaina Chaina Aaja Pani
C                                         D
Tasvir Merai Saath Cha mayalu

Em                                                  Am
Maya mareko chaina chaina ma bekasur chu
C                                         D
Timilai thaha rahena cha mayalu


Enjoy



0 Comments

Post a Comment

Iklan Atas Artikel

Iklan Tengah Artikel 1

Iklan Tengah Artikel 2

Iklan Bawah Artikel