Resham Filili - Jaalma Guitar Chords And Lyrics

Jaalma Guitar Chords And Lyrics

Song: Jaalma
Artist: Kali Prashad Baskota And Soumya Baraili
Movie: Resham Filili

Chords Used
        C    Fsus4      F    G       Bb     Gm7      G#     Am7
e|----0------1-----------1----3-------1---------3---------4---------5---|
B|----1------1-----------1----3-------3---------3---------4---------5---|
G|----0------3-----------2----4-------3---------3---------5---------5---|
D|----2------3-----------3----5-------3---------3---------6---------5---|
A|----3------x-----------3----5-------1---------5---------6---------7---|
E|------------x-------------------------------------3--------------------5---|

Intro
       [C]             [F]                       [G]              [C]
e|------------------------------------|------------------------------------|--------------------------|----------------------------------|
B|------------8------------8----------|--------------10----------10--------|-----------8--------8-----|-----------8------------8---------|
G|---------9-----------9-----------9--|---------10-----------10---------10-|-------7--------7-------7-|--------9------------9---------9--|
D|----10---------10----------10-------|----10------------10---------10-----|---9---------9--------9---|---10----------10--------10-------|
A|------------------------------------|------------------------------------|--------------------------|----------------------------------|
E|------------------------------------|------------------------------------|--------------------------|----------------------------------|

Repeat 2 Times

[ With Intro Tabs]
Haaaaa, Haaaaaa, Haaaaaa, Haaaaa ha
Haaaaa, Haaaaaa, Haaaaaa, Haaaaa ha

C                                    Bb                  C
Pari tyo dada ma hera gham lagyo ghamailo

C                     Bb

Lagyo malai ramailo

C                    G
Timi ra ma ghumna jaun na

Bb
Ani gham le malai sataula

Fsus4
kali malai banau la

Gm                   C
Timi pirati ko chata odhauna

[Play Intro Tab 2 Times]

Gm          
Khola jastai bagau hami pirati ko taalai ma

Bb                Gm
Machi marau jaalai ma

Am                  F
huncha ki nai hunna vanana

Bb
Ani jaalma eklai parchau ki

Gm7
Achkalto mai chadchau ki

Am                   C
Sindur lau chau ki nai vanana

[Play Intro Tab 1 times]

C                           F
O baiguni oa maya namare ni kahile ho

G                            C
O nisturi oa vuli najanu ni kahile ho

C                          F
O baiguni oa maya namare ni kahile ho

G                             C
O nisturi oa vuli najanu ni kahile ho

F
Ma pani k ma kaam chu ni

Gm7
Pakhuri ma dum cha ni

Bb
Sampati kamaincha ni

Am7                 F
Sun chadi le timilai varula

Bb
Sun chadi chaindaina

Gm7
Sampati lai aaindaina

Am7                 G#
Maya garchau ki nai vanana

C                              Bb   C
Pari tyo dada ma hera gham lagyo ghamailo

C                Bb
Lagyo malai ramailo

C                    G
Timi ra ma ghumna jaun na

Bb
Ani gham le malai sataula

Fsus4
kali malai banau la

Gm                   C
Timi pirati ko chata odhauna

[Play Intro Tab]

C          F       G        C
Timi pirati ko chata odhauna
C         F        G        C
Timi ra ma ghumna jaun na
C           F          G       C
Timi pirati ko chata odhauna

Enjoy....

Please feel free to share your views, correction and feedback so i can make this blog even better!


0 Comments

Post a Comment

Iklan Atas Artikel

Iklan Tengah Artikel 1

Iklan Tengah Artikel 2

Iklan Bawah Artikel