Bipul Chettri - Wildfire [ Dadhelo ] Guitar Chord, Tab, Lyrics And Tutorials | SongsChord

Dadhelo Guitar Chords And Lyrics

Song: WildFire [ Dadhelo ]
Artist: Bipul Chettri
Album: Sketeches Of Darjelling

Capo at 4th Fret

Intro

|-------- 2x ----------------------|----- 2x----------------|
e----------------------------------|------------------------|
B--12----------------------------|--7---------------------|
G--------0-11-0------0---0---|-----0-6-0----0---0-----|
D----------------11----0--------|-----------6---0--------|
A---------------------------------|------------------------|
E-12-----------------------------|--7---------------------|

Verse

|-------- 2x ----------------------|----- 2x----------------|
e----------------------------------|------------------------|
B--12----------------------------|--7---------------------|
G--------0-11-0------0---0---|-----0-6-0----0---0-----|
D----------------11----0--------|-----------6---0--------|
A---------------------------------|------------------------|
E-12-----------------------------|--7---------------------|

Dadhelo lagyo tyo pari dada Saajha tira

|-------- 2x ----------------------|----- 2x----------------|
e----------------------------------|------------------------|
B--12----------------------------|--7---------------------|
G--------0-11-0------0---0---|-----0-6-0----0---0-----|
D----------------11----0--------|-----------6---0--------|
A---------------------------------|------------------------|
E-12-----------------------------|--7---------------------|

Lau hai feri man ma mero lagyo pira

|-------- 2x ----------------------|----- 2x----------------|
e----------------------------------|------------------------|
B--12----------------------------|--7---------------------|
G--------0-11-0------0---0---|-----0-6-0----0---0-----|
D----------------11----0-------|-----------6---0--------|
A---------------------------------|------------------------|
E-12-----------------------------|--7---------------------|

Batasha ma failiyo aago sarara

|-------- 2x ----------------|
e----------------------------------|--------------------------|------------|
B--12----------------------------|--7----------------------|--7---------|
G--------0-11-0------0---0---|-----0-6-0----0---0---|-----0-6-0--|
D----------------11----0--------|-----------6---0--------|------------|
A---------------------------------|---------------------------|------------|
E-12-----------------------------|--7-----------------------|--7---------|

Yaad haru timro farkera aayo jhalala la

Chorus

e-------------------------------------------------------|---------------------------------|---------------|
B------------------0--------0------0-------0--------|--12----------------------------|--12-----------|
G--------------------0--------0------0-------0------|--------0-11-0------0---0---|-------0-11-0--|
D---------------8--------6----------------------------|----------------11----0-------|---------------|
A---------6--7-------------------9-------7------6---|---------------------------------|---------------|
E--7--9------------------------------------------------|-12----------------------------|--12-----------|

Bujhaideu na jali raane yo man

e-------------------------------------------------------|----------------------------|------------|
B------------------0--------0------0-------0--------|--7------------------------|--7---------|
G--------------------0--------0------0-------0------|-----0-6-0----0---0----|-----0-6-0--|
D---------------8--------6----------------------------|-----------6---0---------|------------|
A---------6--7-------------------9-------7------6---|--------------------------|------------|
E--7--9------------------------------------------------|--7-----------------------|--7---------|

Pakdi deu na udi raane yo man

e-------------------------------------------------------|--------------------------------|---------------|
B------------------0--------0------0-------0--------|--12---------------------------|--12-----------|
G--------------------0--------0------0-------0------|--------0-11-0------0---0---|-------0-11-0--|
D---------------8--------6----------------------------|----------------11----0--------|---------------|
A---------6--7-------------------9-------7------6---|---------------------------------|---------------|
E--7--9------------------------------------------------|-12----------------------------|--12-----------|

Bujhaideu na Jali rahane yo man

e-------------------------------------------------------|---------------------------|-------------|
B------------------0--------0------0-------0--------|--7------------------------|--7----------|
G--------------------0--------0------0-------0------|-----0-6-0----0---0----|-----0-6-0---|
D---------------8--------6----------------------------|-----------6---0----------|-------------|
A---------6--7-------------------9-------7------6---|---------------------------|-------------|
E--7--9------------------------------------------------|--7-----------------------|--7----------|

Pakdi deu na udi rahane yo man

Interlude

|-------- 2x -----------------------|----- 2x----------------|
e-----------------------------------|------------------------|
B--12-----------------------------|--7---------------------|
G--------0-11-0------0---0----|-----0-6-0----0---0-----|
D----------------11----0---------|-----------6---0--------|
A-----------------------------------|------------------------|
E-12-------------------------------|--7---------------------|

Verse

|-------- 2x ----------------------|----- 2x----------------|
e----------------------------------|------------------------|
B--12----------------------------|--7---------------------|
G--------0-11-0------0---0----|-----0-6-0----0---0-----|
D----------------11----0--------|-----------6---0--------|
A----------------------------------|------------------------|
E-12-----------------------------|--7---------------------|

Charai tira adhyaro nai adhyaro cha

|-------- 2x ----------------------|----- 2x----------------|
e-----------------------------------|------------------------|
B--12-----------------------------|--7---------------------|
G--------0-11-0------0---0----|-----0-6-0----0---0-----|
D----------------11----0---------|-----------6---0--------|
A----------------------------------|------------------------|
E-12------------------------------|--7---------------------|

Aaja samma sapana haru adhuro nai cha

|-------- 2x -----------------|----- 2x----------------|
e----------------------------------|------------------------|
B--12----------------------------|--7---------------------|
G--------0-11-0------0---0----|-----0-6-0----0---0-----|
D----------------11----0---------|-----------6---0--------|
A----------------------------------|------------------------|
E-12-----------------------------|--7---------------------|

Kasari bujhau yo nabujhne rahar haru

|-------- 2x -----------------|
e----------------------------------|-----------------------------|-------------|
B--12----------------------------|--7-------------------------|--7----------|
G--------0-11-0------0---0----|-----0-6-0----0---0-----|-----0-6-0---|
D----------------11----0---------|-----------6---0----------|-------------|
A-----------------------------------|----------------------------|-------------|
E-12-------------------------------|--7------------------------|--7----------|

Dina ra raat jhai kahilai namilne sapana haru

Chorus

e-------------------------------------------------------|---------------------------------|---------------|
B------------------0--------0------0-------0--------|--12----------------------------|--12-----------|
G--------------------0--------0------0-------0------|--------0-11-0------0---0---|-------0-11-0-|
D---------------8--------6----------------------------|----------------11----0-------|---------------|
A---------6--7-------------------9-------7------6---|--------------------------------|---------------|
E--7--9------------------------------------------------|-12---------------------------|--12-----------|

Bujhaideu na Jali rahane yo man

e-------------------------------------------------------|--------------------------|-------------------|
B------------------0--------0------0-------0--------|--7-----------------------|--7----------------|
G--------------------0--------0------0-------0------|-----0-6-0----0---0----|-----0-6-0---0---0-|
D---------------8--------6----------------------------|-----------6---0----------|------------6-0----|
A---------6--7-------------------9-------7------6---|---------------------------|-------------------|
E--7--9------------------------------------------------|--7-----------------------|--7----------------|

Pakdi deu na udi rahane yo man

Ending

|-------- 2x ----------------------|----- 2x----------------|
e----------------------------------|------------------------|
B--12----------------------------|--7---------------------|
G--------0-11-0------0---0----|-----0-6-0----0---0-----|
D----------------11----0--------|-----------6---0--------|
A----------------------------------|------------------------|
E-12------------------------------|--7---------------------|

Happy Playing!!!


Listen To The Song Here:



0 Comments

Post a Comment

Iklan Atas Artikel

Iklan Tengah Artikel 1

Iklan Tengah Artikel 2

Iklan Bawah Artikel