Albatross Nepal - Aafnai Sansar Ma Kina Guitar Chords And Lyrics [With original Tuning and Capo]

Aafnai Sansar Ma Guitar Chords And Lyrics

Song: Aafnai Sansar Ma Kina

Artist/Band: Albatross Nepal


Strumming: D-udu-D-udu 

|Note:Play upper strings which means 6,5and 4 first then lower strings 3,2 and 1 when playing D#m7|

Tuning: Half Step Down |D#G#C#F#A#C#|
Capo: 4th Fret

Chords Used: D#m9 : 068070
             G#sus2 : x06800
             F#6 : 790800
             B7M : 076000
             C#sus2add11 : xx0680

Here is the Guitar tutorial video by Suncha vox on Youtube:


Song starts with keys D#m9 - G#sus2 |Play Twice|
Then,

      D#m9  G#sus2
D#|------0--------0----|
G#|------0--------0----|
C#|------7--------8----|
F#|-------8----0h6----|
A#|---0h6--------0----|
C#|-------0--------x----|
D#m9.........G#sus2
Suru Huncha yesari nai

      D#m9  G#sus2
D#|-----0------0----|
G#|-----0------0----|
C#|-----7------8----|
F#|------8--0h6----|
A#|--0h6------0----|
C#|------0------x----|
D#m9.........G#sus2
Prashna le chodeko chaina

      D#m9  G#sus2
D#|----0----0----|
G#|----0----0----|
C#|----7----8----|
F#|----8--0h6----|
A#|--0h6----0----|
C#|----0----x----|
D#m9.........G#sus2
Yatana ma hurkiyeta pani

      D#m9  G#sus2
D#|----0----0--------|
G#|----0----0--------|
C#|----7----8--------|
F#|----8--0h6--6p0---|
A#|--0h6----0------8-|
C#|----0----x--------|
D#m9.........G#sus2
Baiguni ma timi jasto haina,

      D#m9  G#sus2
D#|----0----0----|
G#|----0----0----|
C#|----7----8----|
F#|----8--0h6----|
A#|--0h6----0----|
C#|----0----x----|
D#m9......G#sus2
Na hirkau malai

      D#m9  G#sus2
D#|----0----0----|
G#|----0----0----|
C#|----7----8----|
F#|----8--0h6----|
A#|--0h6----0----|
C#|----0----x----|
D#m9......G#sus2
Na jiskau malai

      D#m9  G#sus2
D#|----0----0----|
G#|----0----0----|
C#|----7----8----|
F#|----8--0h6----|
A#|--0h6----0----|
C#|----0----x----|
D#m9......G#sus2
Nata sumsumau malai

      D#m9  G#sus2
D#|----0----0-------------|
G#|----0----0-------------|
C#|----7----8-------------|
F#|----8--0h6--0h6-8-9-11-|
A#|--0h6----0-------------|
C#|----0----x-------------|
D#m9......G#sus2
Najik mero na aau

    F#6   G#sus2
D#|---0------0---x-x-x-x-|
G#|---0------0---x-x-x-x-|
C#|---8------8---x-x-x-x-|
F#|---0------6---4-6-4-7-|
A#|---9------0---4-6-4-7-|
C#|---7------x---x-x-x-x-|
F#6..........G#sus2
Aandhi hu ma beri hu....

    F#6   G#sus2
D#|---0------0---x-x-x-x-|
G#|---0------0---x-x-x-x-|
C#|---8------8---x-x-x-x-|
F#|---0------6---4-6-7-9-|
A#|---9------0---4-6-7-9-|
C#|---7------x---x-x-x-x-|
F#6..........G#sus2
Risayeki ma chori hu.....

    F#6   G#sus2
D#|---0------0-|
G#|---0------0-|
C#|---8------8-|
F#|---0------6-|
A#|---9------0-|
C#|---7------x-|
F#6..........G#sus2
Ma chori haina ma chori haina...

     B7M   C#sus2add11
D#|---0------0-|
G#|---0------8-|
C#|---0------6-|
F#|---8------0-|
A#|---7------x-|
C#|---0------x-|
B7M.............C#sus2add11
Ma chori haina ma chori haina....

      D#m9  G#sus2
D#|----0----0----|
G#|----0----0----|
C#|----7----8----|
F#|----8--0h6----|
A#|--0h6----0----|
C#|----0----x----|
D#m9......G#sus2
Beshara timi vandai

      D#m9  G#sus2
D#|----0----0----|
G#|----0----0----|
C#|----7----8----|
F#|----8--0h6----|
A#|--0h6----0----|
C#|----0----x----|
D#m9......G#sus2
Beshara pani banauchau

      D#m9  G#sus2
D#|----0----0----|
G#|----0----0----|
C#|----7----8----|
F#|----8--0h6----|
A#|--0h6----0----|
C#|----0----x----|
D#m9......G#sus2
Ani aauchau matiyera
      D#m9  G#sus2
D#|----0----0--------|
G#|----0----0--------|
C#|----7----8--------|
F#|----8--0h6--6p0---|
A#|--0h6----0------8-|
C#|----0----x--------|
D#m9......G#sus2
Hochyayera chitta dukhauchau

      D#m9  G#sus2
D#|----0----0----|
G#|----0----0----|
C#|----7----8----|
F#|----8--0h6----|
A#|--0h6----0----|
C#|----0----x----|
D#m9......G#sus2
Na hochyau malai

      D#m9  G#sus2
D#|----0----0----|
G#|----0----0----|
C#|----7----8----|
F#|----8--0h6----|
A#|--0h6----0----|
C#|----0----x----|
D#m9......G#sus2
Na satau malai

      D#m9  G#sus2
D#|----0----0----|
G#|----0----0----|
C#|----7----8----|
F#|----8--0h6----|
A#|--0h6----0----|
C#|----0----x----|
D#m9......G#sus2
Nata chalbalau malai

      D#m9  G#sus2
D#|----0----0-------------|
G#|----0----0-------------|
C#|----7----8-------------|
F#|----8--0h6--0h6-8-9-11-|
A#|--0h6----0-------------|
C#|----0----x-------------|
D#m9......G#sus2
Najik mero na aauuuu

    F#6   G#sus2
D#|---0------0---x-x-x-x-|
G#|---0------0---x-x-x-x-|
C#|---8------8---x-x-x-x-|
F#|---0------6---4-6-4-7-|
A#|---9------0---4-6-4-7-|
C#|---7------x---x-x-x-x-|
F#6......G#sus2
Aandhi hu ma beri hu....

    F#6   G#sus2
D#|---0------0---x-x-x-x-|
G#|---0------0---x-x-x-x-|
C#|---8------8---x-x-x-x-|
F#|---0------6---4-6-7-9-|
A#|---9------0---4-6-7-9-|
C#|---7------x---x-x-x-x-|
F#6......G#sus2
Risayeki ma chori hu.....

    F#6   G#sus2
D#|---0------0-|
G#|---0------0-|
C#|---8------8-|
F#|---0------6-|
A#|---9------0-|
C#|---7------x-|
F#6..............G#sus2
Ma chori haina ma chori haina...

     B7M   C#sus2add11
D#|---0------0-|
G#|---0------8-|
C#|---0------6-|
F#|---8------0-|
A#|---7------x-|
C#|---0------x-|
F#6......G#sus2
Ma chori haina ma chori haina....

    F#6   G#sus2
D#|---0------0---x-x-x-x-|
G#|---0------0---x-x-x-x-|
C#|---8------8---x-x-x-x-|
F#|---0------6---4-6-4-7-|
A#|---9------0---4-6-4-7-|
C#|---7------x---x-x-x-x-|
F#6......G#sus2
Aandhi hu ma beri hu....

    F#6   G#sus2
D#|---0------0---x-x-x-x-|
G#|---0------0---x-x-x-x-|
C#|---8------8---x-x-x-x-|
F#|---0------6---4-6-7-9-|
A#|---9------0---4-6-7-9-|
C#|---7------x---x-x-x-x-|
F#6......G#sus2
Risayeki ma chori hu.....

    F#6   G#sus2
D#|---0------0-|
G#|---0------0-|
C#|---8------8-|
F#|---0------6-|
A#|---9------0-|
C#|---7------x-|
F#6...............G#sus2
Ma chori haina ma chori haina...

     B7M   C#sus2add11
D#|---0------0-|
G#|---0------8-|
C#|---0------6-|
F#|---8------0-|
A#|---7------x-|
C#|---0------x-|
F#6......G#sus2
Ma chori haina ma chori haina....

      D#m9  G#sus2
D#|----0----0----|
G#|----0----0----|
C#|----7----8----|
F#|----8--0h6----|
A#|--0h6----0----|
C#|----0----x----|
D#m9.........G#sus2
Aafnai sansar ma kina

      D#m9  G#sus2
D#|----0----0----|
G#|----0----0----|
C#|----7----8----|
F#|----8--0h6----|
A#|--0h6----0----|
C#|----0----x----|
D#m9.........G#sus2
Aafnai Sansar ma Kina

      D#m9  G#sus2
D#|----0----0----|
G#|----0----0----|
C#|----7----8----|
F#|----8--0h6----|
A#|--0h6----0----|
C#|----0----x----|
D#m9.........G#sus2
Aafnai sansar ma kina

      D#m9  G#sus2
D#|----0----0----|
G#|----0----0----|
C#|----7----8----|
F#|----8--0h6----|
A#|--0h6----0----|
C#|----0----x----|
D#m9.........G#sus2
Aafnai Sansar ma Kina

Happy strumming :)

For the chords With Standard Tuning And Without Capo: Click Here

Enjoy 😊

Albatross Performance In Kripa Unplugged
 


0 Comments

Post a Comment

Iklan Atas Artikel

Iklan Tengah Artikel 1

Iklan Tengah Artikel 2

Iklan Bawah Artikel