Albatross Nepal - Bhool Guitar Chords And Lyrics (Tabs)

Bhool Guitar Chords And Lyrics
Albatross Nepal

Bhool Guitar Chords And Lyrics By Albatross Nepal

Song: Bhool
Artist: Albatross Nepal
Tuning: D#A#F#C#G#D#


Intro: Twice
D#------------------------5H----------------------------------------------|
A#-----------------7H---5H-------7H--------3-3-----------5-5-5-5-5--|
F#-------7H---7H-------------7H---------------------------5-5-5-5-5--|
C#----7H--------------------------------------2-2------------------------|
G#---------------------------------------------3--3----3/5----------------|
D#--0----------------------------------------------------------------------|

D#------------------------5H----------------------------------------------------|
A#-----------------7H---5H-------7H--------3-3-----------5-5-5/7\5\3-----|
F#-------7H---7H-------------7H---------------------------5-5-5\7\5\3-----|
C#----7H--------------------------------------2-2------------------------------|
G#---------------------------------------------3--3----3/5---------------------|
D#--0-------------------------------------------------------------------------0-|

Mauka Paye......
D#------------------------5H----------------------------------------------|
A#-----------------7H---5H-------7H--------3-3-----------5-5-5-5-5--|
F#-------7H---7H-------------7H---------------------------5-5-5-5-5--|
C#----7H--------------------------------------2-2------------------------|
G#---------------------------------------------3--3----3/5----------------|
D#--0----------------------------------------------------------------------|

D#------------------------5H----------------------------------------------------|
A#-----------------7H---5H-------7H--------3-3-----------5-5-5/7\5\3-----|
F#-------7H---7H-------------7H---------------------------5-5-5\7\5\3-----|
C#----7H--------------------------------------2-2------------------------------|
G#---------------------------------------------3--3----3/5---------------------|
D#--0-------------------------------------------------------------------------0-|

Din Aaucha.....
D#--------------------------------------------------------------3--|
A#-----3----------3--------3------3------3------------3------3--|
F#--------4----------4-------4------4------4------------4----0--|
C#--------------------------------------------------------------2---|
G#--2--------------------2--------------2----------------------3--|
D#-------------3-----------------3-----------------3--------------|

Bhool Vayecha Yo Kasto
D#---3------5-----0---|
A#---3------5-----0---|
F#---0------0-----0---|
C#---2------4-----2---|
G#---3------5-----2---|
D#---------------------|

Chokho maya nabujhe jasto
D#---3------5-----0---|
A#---3------5-----0---|
F#---0------0-----0---|
C#---2------4-----2---|
G#---3------5-----2---|
D#---------------------|

Bhool vayecha yo kasto
D#---3------5-----0---|
A#---3------5-----0---|
F#---0------0-----0---|
C#---2------4-----2---|
G#---3------5-----2---|
D#---------------------|

Nasodha malai....
D#---4------3-----|
A#---5------5-----|
F#---6------5-----|
C#---4------5-----|
G#---4------3-----|
D#-----------------|

Solo:

D#------------------------------------------------------------------15br12-----------|
A#-----------------------------------------------15br12---------------------15h12--|
F#------------12br-----------14br12---------------------14h12---------------------|
C#--12h14----------14h12------------14h12----------------------------------------|
G#-------------------------------------------------------------------------------------|
D#-------------------------------------------------------------------------------------|

D#--15br--15~---14br--------------------------------------------------------------|
A#-----------------------12~--------------------------------------------------------|
F#-----------------------------12p11---11--11/9--9-9--9/11/12/14--16--14--12--|
C#------------------------------------------------------------------------------------|

D#--------------------------------------------------------------------------|
A#---15(double bend)--15(double bend)--15b--15(double bend)--|
F#---------------------------------------------------------------------------|

Aandhi yo....... (3×)
D#--------------------------0--|
A#--------------------------0--|
F#-------0------0------0---0--|
C#-----2------2------2-----2--|
G#----------2------3-------2--|
D#--0-----------------------0-|

D#--------------------------------------|
A#--------------------------------------|
F#-------0------0------0---------------|
C#-----2------2------2-----------------|
G#----------2------3--------------------|
D#--0----------------------0/7--6--5--|

Badhyata mero.... (3×)
D#--------------------------0--|
A#--------------------------0--|
F#-------0------0------0---0--|
C#-----2------2------2-----2--|
G#----------2------3-------2--|
D#--0-----------------------0-|

D#-------------------|
A#-------------------|
F#-----------0-------|
C#--------4----4-----|
G#-----5----------5--|
D#--0----------------|

Riff: Twice
F#--------------------------|
C#--2--5-------------------|
G#--2--3--6--7--3-3-3-3-|
D#---------4--5--1-1-1-1--|

C#------------------|
G#--3-3-3--4-4-4--|
D#--1-1-1---2-2-2--|

F#-------------------------------------------|
C#--5-5----8-8----6-6----7-7--------------|
G#--5---5--8---8--6---6--7---7--3-3-3-3-|
D#--3------6-------4------5-------1-1-1-1--|

Riff2: Twice
C#-----------------------------------|
G#-----------0/5--3---3--4--5--6--|
D#--0--2--3-------------------------|

Riff3:
A#------------------------------|
F#-----------0/7--5--6--7--8--|
C#--2--4--5--------------------|

Riff2 here,
Last Riff,
A#---------------------------------|
F#-----------0/7--5--6--7--8--9-|
C#--2--4--5-----------------------|

Enjoy!



Lyrics
Mauka paye
sachayun thiye
So chai sochma, mauka gumaye

Bhool mabata bhayecha yo kasto
Risai ris ma Jan ris oothey justo

Din aauncha bhani parkhi basey
Parkhaimai din bhooli diye
Chodi aaye aafno chahana lai
Todi diya sabai bandhan

Bhool bhayecha yo kasto
Chokho maya nabujey justo
Bhool bhayecha yo kasto
na sodha malai

Aandhi yo chalna deuoo
Afulai naroka
Bho Bho teti nasatau
Sakdina sumpinna ma

Badhyata mero bujhi deu
Bujhe ko chu timro chahana lai,
Timra harek bahana
Harek bhawana haru lai

Bhoolai bhoolma bhool bhayo
Bhoolai bhoolma bhooley chu ma X4


Don't Forget To Share Your Thoughts 😉


0 Comments

Post a Comment

Iklan Atas Artikel

Iklan Tengah Artikel 1

Iklan Tengah Artikel 2

Iklan Bawah Artikel