Adele - Easy On Me Guitar Chords And Lyrics | SongsChord

Easy On Me Guitar Chords And Lyrics 

Easy On Me Guitar Chords And Lyrics By Adele

Song - Easy On Me
Artist - Adele
Capo - 5th Fret

Chords Used:

Easy On Me Guitar Chords And Lyrics By Adele

Intro
e|---3------------3-----------------|---------------------------------------| 
B|---1-------1-------3---0---1---|---1--------0----3---0-------1-----| 
G|---0---0-----------0---0--------|---0--------0----0---0-------0-----| 
D|-----------------------------------|---------------------------------------| 
A|---3-------3-------3-------------|---0----0--------0-------0---------| 
E|------------------------------------|--------------------------------------| 

e|------------------------------------------|---------------------------------| 
B|---1-----0----1----0----1----0-------|---1----------------------------| 
G|---0-----0----0----0----0----0-------|---0--------2------------------| 
D|------------------------------------------|-------------3------------------| 
A|------------------------------------------|--------------------------------| 
E|---1-----------1----------1-------------|---1----------------------------|

Verse
C                                Am
There ain't no gold in this river
Em                                                           Fmaj7
That I've been washing my hands in forever
C                                  Am
I know there is hope in these waters
                  G
But I can't bring myself to swim
Fmaj7
When I am drowning in this silence
Fmaj7
Baby, let me in

Chorus
C                       G
Go easy on me, baby
Dm
I was still a child
Fmaj7
Didn’t get the chance to
C                                 G
Feel the world around me
Dm
I had no time to choose
Fmaj7
What I chose to do
C                Am       Em       Fmaj7
So go easy on me

Verse
C
There ain't no room
Am
For things to change
G
When we are both so deeply
Fmaj7
Stuck in our ways
C
You can't deny
                 Am
How hard I have tried
                  G
I changed who I was
Fmaj7
To put you both first
Fmaj7
But now I give up

Chorus
C                         G
Go easy on me, baby
Dm
I was still a child
Fmaj7
Didn’t get the chance to
C                        G
Feel the world around me
Dm
I had no time to choose
Fmaj7
What I chose to do
C       Am    Em    Fmaj7
So go easy on me

Bridge
C                   Am
I had good intentions
                      G
And the highest hopes
                        Fmaj7
But I know right now
Fmaj7
It probably doesn't even show

Outro
C                          G
Go easy on me, baby
Dm
I was still a child
Fmaj7
Didn’t get the chance to
C                           G
Feel the world around me
Dm
I had no time to choose
Fmaj7
What I chose to do
C    Am   Em    Fmaj7
So go easy on me

Enjoy 😍

0 Comments

Post a Comment

Iklan Atas Artikel

Iklan Tengah Artikel 1

Iklan Tengah Artikel 2

Iklan Bawah Artikel