Cobweb - Mero Lagi Guitar Chords And Lyrics | SongsChord

Mero Lagi Guitar Chords And Lyrics

Song - Mero Lagi
Artist - Cobweb


Pluckings
                 C#m
E|---------0-------0---------0---------0---|
B|-----2-----0-2-----2---2-----0-2----2-|
G|-1---------------------------1-------------|
D|--------------------------------------------|
A|--------------------------------------------|
E|--------------------------------------------|

                     A
E|-----0------0--------0------0---|
B|---2---0-2---2---2---0-2---2-|
G|-2---------------2----------------|
D|-----------------------------------|
A|-----------------------------------|
E|------------------------------------|

Lead Guitar
E|-------------------------------------|
B|-10p9-7s9-10p9-7s5--------|
G|-------------------------------------|
D|-------------------------------------|
A|-------------------------------------| 
E|-------------------------------------|

Verse
C#m               A
Hera mero, aakha ma
C#m                 A
Tasbir timrai paaune chau
C#m              A
Khoja timi aafu vitra
C#m                         A
Sadhai malai nai paaune chau
C#m                     A
Aashu jharcha fijauda mutu
C#m                               A
Tyo aasu lai bujhne timi nai hau

Chorus
E               Fm        A             B
Timi ma nai cha mera sara khusi
E             Fm           A             B
Timi ma nai cha mera sara sapana
C#m    A      E
Mero lagi swarga ko aartha
C#m      A      E
Matra timi, timi nai hau
C#m    A      E
Mero lagi swarga ko aartha
C#m      A      E
Matra timi, timi nai hau

Verse
C#m                       A
Samaya sangai, badlincha mausam 
C#m            A
Tara timi nabadlinu
C#m                          A
Dukhayechu vane timro mana
C#m               A
Maaf malai garidinu
C#m             A
Harek jiwan jiunalai
C#m                                A
Saath chahincha tyo sathi timi nai hau

Chorus
E               Fm        A             B
Timi ma nai cha mera sara khusi
E             Fm           A             B
Timi ma nai cha mera sara sapana
C#m    A      E
Mero lagi swarga ko aartha
C#m      A      E
Matra timi, timi nai hau
C#m    A      E
Mero lagi swarga ko aartha
C#m      A      E
Matra timi, timi nai hau

Final Solo
D|-11--13-14-16--18-21-| (with wah wah effect) X2

D|-11-7-7h9-|

Thanks For Reading ❤️
Enjoy 😊

0 Comments

Post a Comment

Iklan Atas Artikel

Iklan Tengah Artikel 1

Iklan Tengah Artikel 2

Iklan Bawah Artikel