Bachau (बचाउ) Guitar Tabs | Albatross Nepal

Bachau (बचाउ) Guitar Tabs
Albatross Nepal
Bachau (बचाउ) guitar Chords Guitar Tabs

Song - Bachau (बचाउ)
Band - Albatross Nepal
Album - Raat Ko Rani
Tuning - Half Step Down
Capo - None


For The Easy Standard Tuning Chords Only Version Visit This Post: Bachau Guitar Chords And Lyrics | Albatross Nepal

Mobile User, Please Switch To Desktop Mode 🤘
It Will Be Easier For You To Understand 😉

Intro
Guitar 1
E||----------------------0----------------------0-----0-----0----|------------------0--------------------------0----0----0---||
B||--------------------12--------------------12---12---12----|------------------7--------------------------7----7----7---||
G||--------------------13---------------------------13-----------|------------------8--------------------------------8---------||
D||-----------11-----11--------------------11----------11----|-----------6-----6--------------------------6----------6---||
A||--------0--------------------------------------------------------|---------------------------------------------------------------||
E||-------------------------------------------------------------------|-------7------------------------------------------------------|| 

E||----------------------0----------------------0-----0-----0----|------------------0--------------------------0----0----0---||
B||--------------------12--------------------12---12---12----|------------------7--------------------------7----7----7---||
G||--------------------13---------------------------13-----------|------------------8--------------------------------8---------||
D||-----------11-----11--------------------11----------11----|-----------6-----6--------------------------6----------6---||
A||--------0--------------------------------------------------------|---------------------------------------------------------------||
E||-------------------------------------------------------------------|-------7------------------------------------------------------|| 

Now,
Guitar 1
E||----------------------0----------------------0-----0-----0----|------------------0--------------------------0----0----0---||
B||--------------------12--------------------12---12---12----|------------------7--------------------------7----7----7---||
G||--------------------13---------------------------13-----------|------------------8--------------------------------8---------||
D||-----------11-----11--------------------11----------11----|-----------6-----6--------------------------6----------6---||
A||--------0--------------------------------------------------------|---------------------------------------------------------------||
E||-------------------------------------------------------------------|-------7------------------------------------------------------|| 

Guitar 2
N.H 8 Times
E||------------------------------------------------------------------------------------------------------------------||
B||-----12-----12-----12-----12-----12-----12-----12-----12-----12-----12-----12-----12-----||
G||------------------------------------------------------------------------------------------------------------------||
D||------------------------------------------------------------------------------------------------------------------||
A||------------------------------------------------------------------------------------------------------------------||
E||------------------------------------------------------------------------------------------------------------------|| 

Verse
(Play Intro Guitar 1 Pattern)
K Yahi Ho Astitwo Mero, Jiuna Baaki Nai Thiyo
Kajauna Nasake Pachi, Icchya Ni Mardai Gayo
Kahile Navetine Daar Le, Aatyi Chichyaudai Base
Sansar Lai Tyagne Bichar Ma, Baulai Maati Hide

After Verse,
Guitar 1 Play Same As Verse And,

Guitar 2
E|--------------------------------------7--7-----------------|-------------------------------------7--7------------------|
B|------------------------5--5--5--------------7--7--5---|----------------------5--5--5---------------7--7--5----|
G|--------6--6--6-------------------------------------------|---------4--6--4------------------------------------------|
D|-------------------------------------------------------------|-------------------------------------------------------------|
A|-------------------------------------------------------------|-------------------------------------------------------------|
E|-------------------------------------------------------------|--------------------------------------------------------------| 

E|----------------------------------11--11--7--7--------|----------------------------------11--11---7--7----------|
B|---------------------9--9--9------------------------5---|---------------------9--9--9--------------------------5----|
G|--------8--8--8------------------------------------------|--------8--8--8---------------------------------------------|
D|------------------------------------------------------------|---------------------------------------------------------------|
A|-------------------------------------------------------------|--------------------------------------------------------------|
E|-------------------------------------------------------------|---------------------------------------------------------------|

E|--------------------------------------7--7-----------------|-------------------------------------7--7------------------|
B|------------------------5--5--5--------------7--7--5---|----------------------5--5--5---------------7--7--5----|
G|--------6--6--6-------------------------------------------|---------4--6--4------------------------------------------|
D|-------------------------------------------------------------|-------------------------------------------------------------|
A|-------------------------------------------------------------|-------------------------------------------------------------|
E|-------------------------------------------------------------|--------------------------------------------------------------| 

E|----------------------------------11--11--7--7--------|----------------------------------11--11---7--7----------|
B|---------------------9--9--9------------------------5---|---------------------9--9--9--------------------------5----|
G|--------8--8--8------------------------------------------|--------8--8--8---------------------------------------------|
D|------------------------------------------------------------|---------------------------------------------------------------|
A|-------------------------------------------------------------|--------------------------------------------------------------|
E|-------------------------------------------------------------|---------------------------------------------------------------|

Verse
(Play Intro Guitar 1 Pattern)
Tehi Nai Ho Bhagya Mero, Biswasai Garna Ni Garo
Nachahi Apnaye Pani, Timi Lai Gumaye Pani

After "Timilai Gumaye Pani"
Guitar 2 (Play 2 Times)
E|----------------------------------------------------------------------------|
B|----------------------------9---12--12---9----------------------------|
G|-----------------9--11----------------------------11--9---------------|
D|------9--11--------------------------------------------------11---9---|
A|----------------------------------------------------------------------------|
E|-----------------------------------------------------------------------------| 

E|----------------------------------------------------------------------------|
B|----------------------------9---12--12---9----------------------------|
G|-----------------9--11----------------------------11--9---------------|
D|------9--11--------------------------------------------------11---9---|
A|----------------------------------------------------------------------------|
E|-----------------------------------------------------------------------------| 

E|----------------------------9--12---12--11--11--11--11--11---|
B|-----------------9--12---------------------------------------------------|
G|------9--11--------------------------------------------------------------|
D|----------------------------------------------------------------------------|
A|----------------------------------------------------------------------------|
E|-----------------------------------------------------------------------------| 

E|----------------------------9--12---12--11--11--11--11--11---|
B|-----------------9--12---------------------------------------------------|
G|------9--11--------------------------------------------------------------|
D|----------------------------------------------------------------------------|
A|----------------------------------------------------------------------------|
E|-----------------------------------------------------------------------------| 

Kahile Na Paune Aasha Ma, Aru Mai Timi Khoji Base
Kahile Na Paune Aasha Mai, Timi Thani Aru Nai Roje

Pre Chorus
Guitar 1
E|-------------------------------------------------------------|------------------------------------------------|
B|-------------------------------------------------------------|------------------------------------------------|
G|---------------9--------------9--------------9------9----|-----------8----------8----------8----8-----|
D|------11----11----11----11----11----11----11---|-----9----9----9----9----9----9----9-----|
A|--------------------------------------------------------------|------------------------------------------------|
E|--------------------------------------------------------------|------------------------------------------------| 

E|------------------------------------------------|-------------------------------------7----7----9----9--------|
B|------------------------------------------------|--------------------9----9----9--------------------------9---|
G|-----------4----------4----------4----4-----|----8----8----8-----------------------------------------------|
D|-----6----6----6----6----6----6----6-----|-----------------------------------------------------------------|
A|------------------------------------------------|-----------------------------------------------------------------|
E|------------------------------------------------|-----------------------------------------------------------------| 

E|------------------------------------------------------------|------------------------------------------------|
B|------------------------------------------------------------|------------------------------------------------|
G|--------------9--------------9--------------9------9----|-----------8----------8----------8----8-----|
D|-----11----11----11----11----11----11----11---|-----9----9----9----9----9----9----9-----|
A|------------------------------------------------------------|------------------------------------------------|
E|------------------------------------------------------------|-------------------------------------------------| 

E|-------------------------------------------------|--------------------------------------------------------------------------------------|
B|-------------------------------------------------|-------10----10-----10------9----9----9-------------------7----7----7----|
G|------------4---------4-----------4----4-----|--------------------------------------------------8----8----8---------------------|
D|------6----6----6----6----6----6----6-----|-------------------------------------------------------------------------------------|
A|-------------------------------------------------|-------------------------------------------------------------------------------------|
E|--------------------------------------------------|-------------------------------------------------------------------------------------|

E|------------------------------------------------------------------|--------------------------------------------------------|
B|------------------------------------------------------------------|--------------------------------------------------------|
G|----------------9----------------9----------------9------9----|-------------8------------8------------8-----8------|
D|------11-----11-----11-----11-----11-----11----11---|------9-----9-----9-----9-----9-----9-----9------|
A|-------------------------------------------------------------------|--------------------------------------------------------|
E|-------------------------------------------------------------------|--------------------------------------------------------| 

E|-------------------------------------------------------|----------------------------------------------------------------------------------------|
B|-------------------------------------------------------|----------------------------------------------------------------------------------------|
G|-------------11----------11----------11---11---|----------13-----------13----------13---13-------------------------------------|
D|-----13----13---13---13---13---13---13---|---14---14----14---14---14---14---14----13--------13---------11----|
A|--------------------------------------------------------|-----------------------------------------------------------14---------14-----------|
E|--------------------------------------------------------|---------------------------------------------------------------------------------------| 

Guitar 2
E|----------12----------12----------12---12---|----------11----------11----------11---11---|--------7--------7--------7---7---|
B|---14---14---14---14---14---14---14---|---12---12---12---12---12---12---12---|---9---9---9---9---9---9--9---|
G|----------------------------------------------------|-----------------------------------------------------|-------------------------------------|
D|----------------------------------------------------|-----------------------------------------------------|-------------------------------------|
A|----------------------------------------------------|-----------------------------------------------------|-------------------------------------|
E|-----------------------------------------------------|-----------------------------------------------------|------------------------------------|


E|----------12----------12----------12---12---|----------11----------11----------11---11---|--------7--------7--------7---7---|
B|---14---14---14---14---14---14---14---|---12---12---12---12---12---12---12---|---9---9---9---9---9---9--9---|
G|----------------------------------------------------|-----------------------------------------------------|-------------------------------------|
D|----------------------------------------------------|-----------------------------------------------------|-------------------------------------|
A|----------------------------------------------------|-----------------------------------------------------|-------------------------------------|
E|-----------------------------------------------------|-----------------------------------------------------|------------------------------------| 

E|-------------12------------12-------------12----12----|-------------11-------------11------------11----11-----|
B|-----14----14----14----14----14----14----14-----|-----12----12----12----12----12----12----12-----|
G|--------------------------------------------------------------|---------------------------------------------------------------|
D|--------------------------------------------------------------|---------------------------------------------------------------|
A|--------------------------------------------------------------|---------------------------------------------------------------|
E|--------------------------------------------------------------|---------------------------------------------------------------| 

E|--------------14------------14------------14-----14----|-------------16------------16------------16----16-----|
B|------16----16----16----16----16----16----16-----|-----17----17----17----17----17----17----17-----|
G|---------------------------------------------------------------|--------------------------------------------------------------|
D|---------------------------------------------------------------|--------------------------------------------------------------|
A|---------------------------------------------------------------|--------------------------------------------------------------|
E|---------------------------------------------------------------|--------------------------------------------------------------| 

Chorus
4 Times
Bachau Malai, Ma Aafai Sanga Boli Rahe Chu
Bachau Bachau Malai, Ma Aafnai Rachana Ma Bhuli Rahechu
Bachau Bachau Malai, Ma Aafnai Kalpana Ma Dhubi Rahechu
Bachau Bachau Malai

E|-----------------------------------------------------------------|-----------------------------------------------------|
B|-----------------------------------------------------------------|-----------------------------------------------------|
G|------13------13-----11-----11/13-----13-----13---|----13----13-----13/16-----16----16-----|
D|------11------11------9-------9/11------11-----11---|----11----11-----11/14-----14----14-----|
A|-----------------------------------------------------------------|-----------------------------------------------------|
E|-----------------------------------------------------------------|-----------------------------------------------------| 

E|------------------------------------------------------|------------------------------------------------------|
B|------------------------------------------------------|------------------------------------------------------|
G|--------8------8-----6-----6/8------8-----8---|--------8-----8------8/11-----11-----11-----|
D|--------6------6-----4-----4/6------6-----6---|--------6-----6-------6/9--------9------9------|
A|------------------------------------------------------|------------------------------------------------------|
E|------------------------------------------------------|-------------------------------------------------------| 

Post Chorus
Guitar 1
E|--------------------------------------------------------------------|-----------------------------------------------------------------------|
B|--------------------------------------------------------------------|-----------------------------------------------------------------------|
G|--------------------------------------------------------------------|-----------------------------------------------------------------------|
D|----13---14-----14----14----14----13----13----13----|----13----16-----16----16----16----13----13----13-----|
A|---------------------------------------------------------------------|----------------------------------------------------------------------|
E|---------------------------------------------------------------------|----------------------------------------------------------------------| 

E|---------------------------------------------------------------------|-----------------------------------------------------------------------|
B|---------------------------------------------------------------------|-----------------------------------------------------------------------|
G|---------------------------------------------------------------------|-----------------------------------------------------------------------|
D|----13---14------14----14----14----13----13----13----|----13----18------18----18----18----13----13----13----|
A|----------------------------------------------------------------------|----------------------------------------------------------------------|
E|----------------------------------------------------------------------|-----------------------------------------------------------------------| 

E|--------------------------------------------------------------------|-----------------------------------------------------------------------|
B|--------------------------------------------------------------------|-----------------------------------------------------------------------|
G|--------------------------------------------------------------------|-----------------------------------------------------------------------|
D|----13---14-----14----14----14----13----13----13----|----13----16-----16----16----16----13----13----13-----|
A|---------------------------------------------------------------------|----------------------------------------------------------------------|
E|---------------------------------------------------------------------|----------------------------------------------------------------------| 

E|---------------------------------------------------------------------|-----------------------------------------------------------------------|
B|---------------------------------------------------------------------|-----------------------------------------------------------------------|
G|---------------------------------------------------------------------|-----------------------------------------------------------------------|
D|----13---14------14----14----14----13----13----13----|----13----18------18----18----18----13----13----13----|
A|----------------------------------------------------------------------|----------------------------------------------------------------------|
E|----------------------------------------------------------------------|-----------------------------------------------------------------------|

Guitar 2
E|-------------------------------------------------------------------------|--------------------------------------------------------------------|
B|---------12------12-------12-------12-------12--------12----|-------12------12------12-------12-------12-------12----|
G|-----9--------9---------9--------8----------8---------8-----------|----9-------9---------9--------8---------8---------8----------|
D|------------------------------------------------------------------------|--------------------------------------------------------------------|
A|------------------------------------------------------------------------|--------------------------------------------------------------------|
E|------------------------------------------------------------------------|---------------------------------------------------------------------| 

E|-------------------------------------------------------------------------|--------------------------------------------------------------------|
B|---------12------12-------12-------12-------12--------12----|-------12------12------12-------12-------12-------12----|
G|-----9--------9---------9--------8----------8---------8-----------|----9-------9---------9--------8---------8---------8----------|
D|------------------------------------------------------------------------|--------------------------------------------------------------------|
A|------------------------------------------------------------------------|--------------------------------------------------------------------|
E|------------------------------------------------------------------------|---------------------------------------------------------------------| 

E|-------------------------------------------------------------------------|--------------------------------------------------------------------|
B|---------12------12-------12-------12-------12--------12----|-------12------12------12-------12-------12-------12----|
G|-----9--------9---------9--------8----------8---------8-----------|----9-------9---------9--------8---------8---------8----------|
D|------------------------------------------------------------------------|--------------------------------------------------------------------|
A|------------------------------------------------------------------------|--------------------------------------------------------------------|
E|------------------------------------------------------------------------|---------------------------------------------------------------------| 

E|-------------------------------------------------------------------------|--------------------------------------------------------------------|
B|---------12------12-------12-------12-------12--------12----|-------12------12------12-------12-------12-------12----|
G|-----9--------9---------9--------8----------8---------8-----------|----9-------9---------9--------8---------8---------8----------|
D|------------------------------------------------------------------------|--------------------------------------------------------------------|
A|------------------------------------------------------------------------|--------------------------------------------------------------------|
E|------------------------------------------------------------------------|---------------------------------------------------------------------| 

Chorus
4 Times
Bachau Malai, Ma Aafai Sanga Boli Rahe Chu
Bachau Bachau Malai, Ma Aafnai Rachana Ma Bhuli Rahechu
Bachau Bachau Malai, Ma Aafnai Kalpana Ma Dhubi Rahechu
Bachau Bachau Malai

E|-----------------------------------------------------------------|-----------------------------------------------------|
B|-----------------------------------------------------------------|-----------------------------------------------------|
G|------13------13-----11-----11/13-----13-----13---|----13----13-----13/16-----16----16-----|
D|------11------11------9-------9/11------11-----11---|----11----11-----11/14-----14----14-----|
A|-----------------------------------------------------------------|-----------------------------------------------------|
E|-----------------------------------------------------------------|-----------------------------------------------------| 

E|------------------------------------------------------|------------------------------------------------------|
B|------------------------------------------------------|------------------------------------------------------|
G|--------8------8-----6-----6/8------8-----8---|--------8-----8------8/11-----11-----11-----|
D|--------6------6-----4-----4/6------6-----6---|--------6-----6-------6/9--------9------9------|
A|------------------------------------------------------|------------------------------------------------------|
E|------------------------------------------------------|-------------------------------------------------------| 

Thanks For Visiting ❤️
Enjoy 🤘

Stay Connected For The Latest Song's Guitar Chords And Lyrics. Don't Forget To Share This Post, It Helps Us Grow ☺️ Also you can contribute by submitting a song you know in the Submit Chords section or request any song which is not available here, simply going to the Request A Song section. 🙂
Enjoyed this post? Never miss out on future posts by following us!

0 Comments

Post a Comment

Iklan Atas Artikel

Iklan Tengah Artikel 1

Iklan Tengah Artikel 2

Iklan Bawah Artikel