लोरी | Lori Chords And Lyrics | Pahenlo Batti Muni

Lori Guitar Chords And Lyrics
Pahenlo Batti Muni

Lori Guitar Chords And Lyrics By Pahenlo Batti Muni

Song - Lori
Artist - Pahenlo Batti Muni
Tuning - Standard
Capo - 2nd Fret


Intro

E|---------------------------------------|------------------------------------|
B|-----------7---9p7-----------------|------------7---9p7-------------|
G|----8h9-------------9-----9-------|----8h9--------------9-----9---|
D|---------------------------0-----0---|---------------------------0-------|
A|---------------------------------------|------------------------------------|
E|---------------------------------------|------------------------------------|

E|----9---7------------------------------|
B|------------9---7-------------7-------|
G|-------------------9-------9-----9----|
D|------------------------9---------------|
A|-----------------------------------------|
E|-----------------------------------------|

Verse
D
Humma Pakum Ghumma Pakum
D
Jhumma Pakum Ghumma Pakum

D
Lori Ko Dhuna Dhuna
D
Hey Maya Suna Suna
D
Bhamara Ko Bhoona Bhoona
D
Taha Taha Joona Joona
A
Sansarai Hey Maya
A
Nindari Ma Doobiracha
A
Sapani Ma Ni Maya
A
Khusi Timlai Kuriracha

Chorus
D                          G
Gham Jastai Ujyalo
A                          D
Charera Aau Hai
D                    G
Nidari Ko Maidaan Ma
A               G                  D
Sapani Korera Aau Hai
D                          G
Gham Jastai Ujyalo
A                          D
Charera Aau Hai
D                    G
Nidari Ko Maidaan Ma
A               G                  D
Sapani Korera Aau Hai

Verse
D
Junkiri Ko Tila Pila
D
Raat Ma Jhan Jhila Mila
D
Timi Pani Khola Dil
D
Aadhyaro Ko Aghi Tira
A
Sansarai Hey Maya
A
Adheri Ma Bhuli Racha
A
Timro Haso Ko Maya
A
Bhara Hai Pariracha

Chorus
D                             G
Chir Birauney Chari Jhai
A                       D
Gaudai Aau Hai
D                             G
Sadhai Khusi Ra Maya
A                 G                           D
Ko Bato Pachayaudai Aau Hai
D                             G
Chir Birauney Chari Jhai
A                       D
Gaudai Aau Hai
D                             G
Sadhai Khusi Ra Maya
A                 G                           D
Ko Bato Pachayaudai Aau Hai

Thanks For Visiting ❤️
Enjoy 🤘


Stay Connected For The Latest Song's Guitar Chords And Lyrics. Don't Forget To Share This Post, It Helps Us Grow ☺️ Also you can contribute by submitting a song you know in the Submit Chords section or request any song which is not available here, simply going to the Request A Song section. 🙂

Enjoyed this post? Never miss out on future posts by following us!

0 Comments

Post a Comment

Iklan Atas Artikel

Iklan Tengah Artikel 1

Iklan Tengah Artikel 2

Iklan Bawah Artikel