Eklo Jiwan (Acoustic) Guitar Chords And Lyrics | Cobweb

Eklo Jiwan (Acoustic) Guitar Chords And Lyrics
Cobweb


Song - Eklo Jiwan (Acoustic)
Band - Cobweb
Tuning - Half Step Down
Capo - None


Intro

           D                               Bm

E|--2---------------------------------------------------------|
B|--3--------3-------2------3---------------3--2----------|
G|--2-------------------------------------------------4------|
D|--0---0-------0-------0---------------4--------------4--|
A|---------------------------------0--2----------------------|
E|-------------------------------------------------------------|

         G                         Em                      A

E|-----------------3----------------3-2-0------------------------|
B|--------------------3----------------------0---0-------2-0----|
G|--0-------0h2----------0--------------------2-------------2-|
D|--0----------------------2---------------------2---------------|
A|--2----------------------2---------------------0---0-----------|
E|--3----3-----------------0---0---------------------------------|

Fill

E|---0h2p0-------5---2---|
B|---------------3------------|
G|-----------------------------|
D|-----------------------------|
A|-----------------------------|
E|------------------------------|

Verse

D                    Bm
Eklo Jiwan, Birano Sansaar
G                            Em                    A
Adhuro Lagcha, Saayad Timi Nabhayera Hoki
D                                   Bm
Samjhada Timi Lai, Ooth Ma Muskaan
G                                Em                         A
Aankha Ma Aasu, Haso Ta Kewal Aakash Ko Jun

Chorus

Bm                                G
Bedana Le Yo Chati Poli Rahe Cha
A                         D
Baato Timrai Heri Rahechu
Bm                      G
Aauna Aba Ta Aau Farkera
A                                D
K Lagdaina Maya Mero Timilai
D
Eklo Jiwan

Bridge

F#           G           A
Kurda Kurdai Jiwan Bitna Lagyo
F#         G           A
Timi Aaune Aashai Rahena
F#            G         A
Badline Yo Samaya Jastai
F#          G          A
Katai Timro Maan Bhulyo Ki

Solo

E|-14---12--12h14---10--9--9h10------------------------------------|
B|-14--------------------------------------------------------------------------|
G|-14-----------------------------------------11-12-14-12-13-9-7h9-|
D|------------------------------------------------------------------------------|
A|------------------------------------------------------------------------------|
E|-------------------------------------------------------------------------------|

E|--14----12-12h14----9-10-12--10\12---12/10--10/9--9/7--|
B|--14-----------------------------------------------------------------------|
G|--14-----------------------------------------------------------------------|
D|-----------------------------------------------------------------------------|
A|-----------------------------------------------------------------------------|
E|-----------------------------------------------------------------------------|


E|--14---12-12h14---9-10-12---9-10-7-9----------------|
B|--14------------------------------------------------8-10-7-8--|
G|--14--------------------------------------------------------------|
D|--------------------------------------------------------------------|
A|--------------------------------------------------------------------|
E|--------------------------------------------------------------------|

E|--------------------------------------------------------------------|
B|---------------7-8----------------7----------------5-------------|
G|--------7-9-------------6-7-9----------4-6-7------6h7p6--|
D|--11----------------9----------------7---------------------------|
A|--------------------------------------------------------------------|
E|--------------------------------------------------------------------|

Chorus

Bm                                G
Bedana Le Yo Chati Poli Rahe Cha
A                        D
Baato Timrai Heri Rahechu
Bm                      G
Aauna Aba Ta Aau Farkera
A                                D
K Lagdaina Maya Mero Timilai

Outro

D                    Bm
Eklo Jiwan, Birano Sansaar
G                            Em                    A
Adhuro Lagcha, Saayad Timi Nabhayera Hoki
D
Samjhada Timi Lai

Thanks For Visiting ❤️
Enjoy 🤘

Listen Eklo Jiwan By Cobweb Here:


Stay Connected For The Latest Song's Guitar Chords And Lyrics. Don't Forget To Share This Post, It Helps Us Grow ☺️ Also you can contribute by submitting a song you know in the Submit Chords section or request any song which is not available here, simply going to the Request A Song section. 🙂 
 Enjoyed this post? Never miss out on future posts by following us!

0 Comments

Post a Comment

Iklan Atas Artikel

Iklan Tengah Artikel 1

Iklan Tengah Artikel 2

Iklan Bawah Artikel