Mt8848 - Chiuriful Guitar Chord, Tabs, Lyrics And Tutorials

Chiuriful Guitar Chords And Lyrics

Song:Chiuriful
Artist: Mt8848

Intro: [ Play Two Times ] 

e|----0----0h2--0--|----0---0h2--0--|----0---0h2--0--|----0-----------| 
B|-----3--------3-|-----3--------3-|-----3--------3-|-----3----------| 
G|--2---2----2----|--2---2----2----|--2---2----2----|--2---2---------| 
D|-0--------------|----------------|----------------|-------2h3p2----| 
A|----------------|-4--------------|-3--------------|-2----------3-0-| 
E|----------------|----------------|----------------|----------------| 


Song Starts: 

D                              Bm 
Chiuriful siureko vetna lai jureko 
G                            Em 
Kaha hola ghara timro 

Fill

e|-7h8p7--5------| 
B|---------8-7-5-| 

G                      D 
Banki Chala tyo rato gala 
Em               A7 
Kasari birsu ma 

Fill Played On Flute [ Play 3 Times ] 

e|-2-0-| 

D                            Bm 
Zindagi ek choti aaudaina dui choti 
G               A          D 
Samjhera nai navana 

e|-2-5-3-2--2-3-1-0--5-3-3-5--2-5-3-2-| 
B|-3-3-3-3--3-3-3-3--3-3-2-2--3-3-3-3-| 
G|-2-2-2-2--2-3-3-3--3-3-2-2--2-2-2-2-| 
D|-------------4-3-3-3--3-3-2-2----------| 
A|------------------------------------| 


Verse

D                 Bm 
Chaubandi choli ma 

Fill

e|-2h3p2---------| 
B|-----------5-3-2---| 
G|-------------------4-| 

G                D 
Mohanai boli ma 

D                   Bm 
Chaubandi choli ma 

Fill

e|-2h3p2---------| 
B|-------5-3-2---| 
G|-------------4-| 

G                D 
Mohanai boli ma 

F#                    Bm          G            A       D 
Naugedi ma sajiye ki pahad ki pari timi 

Fill

e|-7h8p7--5------| 
B|---------8-7-5-| 

F#                  Bm                G             A           D 
Vagya vaye timile mane hatdina kahile pachi 

Fill

e|---7p5---7p5-----5----------| 
B|-------------------7----7-5----| 
G|-------------------------------7-| 

Solo

Verse

D                        Bm 
Gharjam garnai parne 

e|---2h3p2-------------| 
B|--------------5-3-2----| 
G|-----------------------4-| 

G                    D 
Saathi rojnai parne 

D                        Bm 
Gharjam garnai parne 

e|----2h3p2-------------| 
B|---------------5-3-2----| 
G|-----------------------4-| 

G                     D 
Saathi rojnai parne 

F#                    Bm 
Nadekhe ma ko ho ko ho 
G            A          D 
Dekhhe maya moho 

e|----7h8p7-----5------| 
B|--------------8-7-5-| 

F#               Bm                G             A        D 
Aba eutai dhoko mero timi lai lane nai ho 

e|-----7p5----7p5----5------| 
B|-----------7-------7-----5---| 
G|-----------------------------7-| 

D                              Bm 
Chiuriful siureko vetna lai jureko 
G                          Em 
Kaha hola ghara timro 

e|---7h8p7----5------| 
B|-------------------8-7-5-| 

G                     D 
Banki Chala tyo rato gala 
Em        A7 
Kasari birsu ma 

e|-2-0-| 

D                             Bm 
Zindagi ek choti aaudaina dui choti 
G                A       D 
Samjhera nai navana 

Happy Playing!!!


1 Comments

Iklan Atas Artikel

Iklan Tengah Artikel 1

Iklan Tengah Artikel 2

Iklan Bawah Artikel